  0
SECTION
  2
HEADER
  9
$ACADVER
  1
AC1015
  9
$ACADMAINTVER
 70
     6
  9
$DWGCODEPAGE
  3
ANSI_1254
  9
$INSBASE
 10
0.0
 20
0.0
 30
0.0
  9
$EXTMIN
 10
0.0
 20
0.0
 30
0.0
  9
$EXTMAX
 10
279.4
 20
215.9
 30
0.0
  9
$LIMMIN
 10
0.0
 20
0.0
  9
$LIMMAX
 10
279.4
 20
215.9
  9
$ORTHOMODE
 70
     0
  9
$REGENMODE
 70
     1
  9
$FILLMODE
 70
     1
  9
$QTEXTMODE
 70
     0
  9
$MIRRTEXT
 70
     1
  9
$LTSCALE
 40
1.0
  9
$ATTMODE
 70
     1
  9
$TEXTSIZE
 40
3.5
  9
$TRACEWID
 40
1.0
  9
$TEXTSTYLE
  7
Standard
  9
$CLAYER
  8
0
  9
$CELTYPE
  6
ByLayer
  9
$CECOLOR
 62
   256
  9
$CELTSCALE
 40
1.0
  9
$DISPSILH
 70
     0
  9
$DIMSCALE
 40
1.0
  9
$DIMASZ
 40
3.5
  9
$DIMEXO
 40
1.0
  9
$DIMDLI
 40
3.75
  9
$DIMRND
 40
0.0
  9
$DIMDLE
 40
0.0
  9
$DIMEXE
 40
1.0
  9
$DIMTP
 40
0.0
  9
$DIMTM
 40
0.0
  9
$DIMTXT
 40
3.5
  9
$DIMCEN
 40
2.5
  9
$DIMTSZ
 40
0.0
  9
$DIMTOL
 70
     0
  9
$DIMLIM
 70
     0
  9
$DIMTIH
 70
     1
  9
$DIMTOH
 70
     1
  9
$DIMSE1
 70
     0
  9
$DIMSE2
 70
     0
  9
$DIMTAD
 70
     1
  9
$DIMZIN
 70
     0
  9
$DIMBLK
  1

  9
$DIMASO
 70
     1
  9
$DIMSHO
 70
     1
  9
$DIMPOST
  1

  9
$DIMAPOST
  1

  9
$DIMALT
 70
     0
  9
$DIMALTD
 70
     3
  9
$DIMALTF
 40
0.0393700787
  9
$DIMLFAC
 40
1.0
  9
$DIMTOFL
 70
     1
  9
$DIMTVP
 40
0.0
  9
$DIMTIX
 70
     0
  9
$DIMSOXD
 70
     0
  9
$DIMSAH
 70
     0
  9
$DIMBLK1
  1

  9
$DIMBLK2
  1

  9
$DIMSTYLE
  2
ISO-25
  9
$DIMCLRD
 70
     0
  9
$DIMCLRE
 70
     0
  9
$DIMCLRT
 70
     0
  9
$DIMTFAC
 40
1.0
  9
$DIMGAP
 40
1.524
  9
$DIMJUST
 70
     0
  9
$DIMSD1
 70
     0
  9
$DIMSD2
 70
     0
  9
$DIMTOLJ
 70
     0
  9
$DIMTZIN
 70
     0
  9
$DIMALTZ
 70
     0
  9
$DIMALTTZ
 70
     0
  9
$DIMUPT
 70
     0
  9
$DIMDEC
 70
     2
  9
$DIMTDEC
 70
     2
  9
$DIMALTU
 70
     2
  9
$DIMALTTD
 70
     3
  9
$DIMTXSTY
  7
Standard
  9
$DIMAUNIT
 70
     0
  9
$DIMADEC
 70
     2
  9
$DIMALTRND
 40
0.0
  9
$DIMAZIN
 70
     0
  9
$DIMDSEP
 70
    44
  9
$DIMATFIT
 70
     3
  9
$DIMFRAC
 70
     0
  9
$DIMLDRBLK
  1

  9
$DIMLUNIT
 70
     2
  9
$DIMLWD
 70
    -2
  9
$DIMLWE
 70
    -2
  9
$DIMTMOVE
 70
     0
  9
$LUNITS
 70
     2
  9
$LUPREC
 70
     2
  9
$SKETCHINC
 40
1.0
  9
$FILLETRAD
 40
10.0
  9
$AUNITS
 70
     0
  9
$AUPREC
 70
     2
  9
$MENU
  1
.
  9
$ELEVATION
 40
0.0
  9
$PELEVATION
 40
0.0
  9
$THICKNESS
 40
0.0
  9
$LIMCHECK
 70
     0
  9
$CHAMFERA
 40
0.0
  9
$CHAMFERB
 40
0.0
  9
$CHAMFERC
 40
0.0
  9
$CHAMFERD
 40
0.0
  9
$SKPOLY
 70
     0
  9
$TDCREATE
 40
2458985.699285532
  9
$TDUCREATE
 40
2458985.574285532
  9
$TDUPDATE
 40
2458985.699285787
  9
$TDUUPDATE
 40
2458985.574285787
  9
$TDINDWG
 40
0.0000000116
  9
$TDUSRTIMER
 40
0.0000000116
  9
$USRTIMER
 70
     1
  9
$ANGBASE
 50
0.0
  9
$ANGDIR
 70
     0
  9
$PDMODE
 70
     0
  9
$PDSIZE
 40
-1.0
  9
$PLINEWID
 40
0.0
  9
$SPLFRAME
 70
     0
  9
$SPLINETYPE
 70
     6
  9
$SPLINESEGS
 70
     8
  9
$HANDSEED
  5
EF
  9
$SURFTAB1
 70
     6
  9
$SURFTAB2
 70
     6
  9
$SURFTYPE
 70
     6
  9
$SURFU
 70
     6
  9
$SURFV
 70
     6
  9
$UCSBASE
  2

  9
$UCSNAME
  2

  9
$UCSORG
 10
0.0
 20
0.0
 30
0.0
  9
$UCSXDIR
 10
1.0
 20
0.0
 30
0.0
  9
$UCSYDIR
 10
0.0
 20
1.0
 30
0.0
  9
$UCSORTHOREF
  2

  9
$UCSORTHOVIEW
 70
     0
  9
$UCSORGTOP
 10
0.0
 20
0.0
 30
0.0
  9
$UCSORGBOTTOM
 10
0.0
 20
0.0
 30
0.0
  9
$UCSORGLEFT
 10
0.0
 20
0.0
 30
0.0
  9
$UCSORGRIGHT
 10
0.0
 20
0.0
 30
0.0
  9
$UCSORGFRONT
 10
0.0
 20
0.0
 30
0.0
  9
$UCSORGBACK
 10
0.0
 20
0.0
 30
0.0
  9
$PUCSBASE
  2

  9
$PUCSNAME
  2

  9
$PUCSORG
 10
0.0
 20
0.0
 30
0.0
  9
$PUCSXDIR
 10
1.0
 20
0.0
 30
0.0
  9
$PUCSYDIR
 10
0.0
 20
1.0
 30
0.0
  9
$PUCSORTHOREF
  2

  9
$PUCSORTHOVIEW
 70
     0
  9
$PUCSORGTOP
 10
0.0
 20
0.0
 30
0.0
  9
$PUCSORGBOTTOM
 10
0.0
 20
0.0
 30
0.0
  9
$PUCSORGLEFT
 10
0.0
 20
0.0
 30
0.0
  9
$PUCSORGRIGHT
 10
0.0
 20
0.0
 30
0.0
  9
$PUCSORGFRONT
 10
0.0
 20
0.0
 30
0.0
  9
$PUCSORGBACK
 10
0.0
 20
0.0
 30
0.0
  9
$USERI1
 70
     0
  9
$USERI2
 70
     0
  9
$USERI3
 70
     0
  9
$USERI4
 70
     0
  9
$USERI5
 70
     0
  9
$USERR1
 40
0.0
  9
$USERR2
 40
0.0
  9
$USERR3
 40
0.0
  9
$USERR4
 40
0.0
  9
$USERR5
 40
0.0
  9
$WORLDVIEW
 70
     1
  9
$SHADEDGE
 70
     3
  9
$SHADEDIF
 70
    70
  9
$TILEMODE
 70
     1
  9
$MAXACTVP
 70
    64
  9
$PINSBASE
 10
0.0
 20
0.0
 30
0.0
  9
$PLIMCHECK
 70
     0
  9
$PEXTMIN
 10
1.0000000000E+20
 20
1.0000000000E+20
 30
1.0000000000E+20
  9
$PEXTMAX
 10
-1.0000000000E+20
 20
-1.0000000000E+20
 30
-1.0000000000E+20
  9
$PLIMMIN
 10
0.0
 20
0.0
  9
$PLIMMAX
 10
420.0
 20
297.0
  9
$UNITMODE
 70
     0
  9
$VISRETAIN
 70
     1
  9
$PLINEGEN
 70
     0
  9
$PSLTSCALE
 70
     1
  9
$TREEDEPTH
 70
  3020
  9
$CMLSTYLE
  2
Standard
  9
$CMLJUST
 70
     0
  9
$CMLSCALE
 40
20.0
  9
$PROXYGRAPHICS
 70
     1
  9
$MEASUREMENT
 70
     1
  9
$CELWEIGHT
370
    -1
  9
$ENDCAPS
280
     0
  9
$JOINSTYLE
280
     0
  9
$LWDISPLAY
290
     1
  9
$INSUNITS
 70
     4
  9
$HYPERLINKBASE
  1

  9
$STYLESHEET
  1

  9
$XEDIT
290
     1
  9
$CEPSNTYPE
380
     0
  9
$PSTYLEMODE
290
     1
  9
$FINGERPRINTGUID
  2
{aeb83e92-05d3-4105-9002-204b3b9c5891}
  9
$VERSIONGUID
  2
{FAEB1C32-E019-11D5-929B-00C0DF256EC4}
  9
$EXTNAMES
290
     1
  9
$PSVPSCALE
 40
0.0
  9
$OLESTARTUP
290
     0
  0
ENDSEC
  0
SECTION
  2
CLASSES
  0
CLASS
  1
ACDBDICTIONARYWDFLT
  2
AcDbDictionaryWithDefault
  3
ObjectDBX Classes
 90
        0
280
     0
281
     0
  0
CLASS
  1
VISUALSTYLE
  2
AcDbVisualStyle
  3
ObjectDBX Classes
 90
     4095
280
     0
281
     0
  0
CLASS
  1
MATERIAL
  2
AcDbMaterial
  3
ObjectDBX Classes
 90
     1153
280
     0
281
     0
  0
CLASS
  1
SCALE
  2
AcDbScale
  3
ObjectDBX Classes
 90
     1153
280
     0
281
     0
  0
CLASS
  1
TABLESTYLE
  2
AcDbTableStyle
  3
ObjectDBX Classes
 90
     4095
280
     0
281
     0
  0
CLASS
  1
MLEADERSTYLE
  2
AcDbMLeaderStyle
  3
ACDB_MLEADERSTYLE_CLASS
 90
     4095
280
     0
281
     0
  0
CLASS
  1
SUN
  2
AcDbSun
  3
SCENEOE
 90
     1153
280
     0
281
     0
  0
CLASS
  1
ACDBPLACEHOLDER
  2
AcDbPlaceHolder
  3
ObjectDBX Classes
 90
        0
280
     0
281
     0
  0
CLASS
  1
LAYOUT
  2
AcDbLayout
  3
ObjectDBX Classes
 90
        0
280
     0
281
     0
  0
ENDSEC
  0
SECTION
  2
TABLES
  0
TABLE
  2
VPORT
  5
8
330
0
100
AcDbSymbolTable
 70
     1
  0
VPORT
  5
29
330
8
100
AcDbSymbolTableRecord
100
AcDbViewportTableRecord
  2
*Active
 70
     0
 10
0.0
 20
0.0
 11
1.0
 21
1.0
 12
139.7
 22
107.95
 13
0.0
 23
0.0
 14
10.0
 24
10.0
 15
10.0
 25
10.0
 16
0.0
 26
0.0
 36
1.0
 17
0.0
 27
0.0
 37
0.0
 40
215.9
 41
1.2941176471
 42
50.0
 43
0.0
 44
0.0
 50
0.0
 51
0.0
 71
     0
 72
  2000
 73
     1
 74
     3
 75
     0
 76
     0
 77
     0
 78
     0
281
     0
 65
     1
110
0.0
120
0.0
130
0.0
111
1.0
121
0.0
131
0.0
112
0.0
122
1.0
132
0.0
 79
     0
146
0.0
  0
ENDTAB
  0
TABLE
  2
LTYPE
  5
5
330
0
100
AcDbSymbolTable
 70
     6
  0
LTYPE
  5
14
330
5
100
AcDbSymbolTableRecord
100
AcDbLinetypeTableRecord
  2
ByBlock
 70
     0
  3

 72
    65
 73
     0
 40
0.0
  0
LTYPE
  5
15
330
5
100
AcDbSymbolTableRecord
100
AcDbLinetypeTableRecord
  2
ByLayer
 70
     0
  3

 72
    65
 73
     0
 40
0.0
  0
LTYPE
  5
16
330
5
100
AcDbSymbolTableRecord
100
AcDbLinetypeTableRecord
  2
Continuous
 70
     0
  3
Solid line
 72
    65
 73
     0
 40
0.0
  0
LTYPE
  5
6E
330
5
100
AcDbSymbolTableRecord
100
AcDbLinetypeTableRecord
  2
HIDDEN
 70
     0
  3
Hidden __ __ __ __ __ __ __ __ __ __ __ __ __ __
 72
    65
 73
     2
 40
1.905
 49
1.27
 74
     0
 49
-0.635
 74
     0
  0
LTYPE
  5
6F
330
5
100
AcDbSymbolTableRecord
100
AcDbLinetypeTableRecord
  2
PHANTOM
 70
     0
  3
Phantom ______  __  __  ______  __  __  ______
 72
    65
 73
     6
 40
12.7
 49
6.35
 74
     0
 49
-1.27
 74
     0
 49
1.27
 74
     0
 49
-1.27
 74
     0
 49
1.27
 74
     0
 49
-1.27
 74
     0
  0
LTYPE
  5
70
330
5
100
AcDbSymbolTableRecord
100
AcDbLinetypeTableRecord
  2
CENTER
 70
     0
  3
Center ____ _ ____ _ ____ _ ____ _ ____ _ ____
 72
    65
 73
     4
 40
10.16
 49
6.35
 74
     0
 49
-1.27
 74
     0
 49
1.27
 74
     0
 49
-1.27
 74
     0
  0
LTYPE
  5
71
330
5
100
AcDbSymbolTableRecord
100
AcDbLinetypeTableRecord
  2
CENTERX2
 70
     0
  3
Center (2x) ________  __  ________  __  _____
 72
    65
 73
     4
 40
20.32
 49
12.7
 74
     0
 49
-2.54
 74
     0
 49
2.54
 74
     0
 49
-2.54
 74
     0
  0
LTYPE
  5
72
330
5
100
AcDbSymbolTableRecord
100
AcDbLinetypeTableRecord
  2
DOT2
 70
     0
  3
Dot (.5x) ........................................
 72
    65
 73
     2
 40
0.635
 49
0.0
 74
     0
 49
-0.635
 74
     0
  0
ENDTAB
  0
TABLE
  2
LAYER
  5
2
330
0
100
AcDbSymbolTable
 70
    17
  0
LAYER
  5
10
330
2
100
AcDbSymbolTableRecord
100
AcDbLayerTableRecord
  2
0
 70
     0
 62
     7
  6
Continuous
370
    -3
390
F
  0
LAYER
  5
73
330
2
100
AcDbSymbolTableRecord
100
AcDbLayerTableRecord
  2
FORMAT
 70
     0
 62
     7
  6
Continuous
370
    -3
390
F
  0
LAYER
  5
74
330
2
100
AcDbSymbolTableRecord
100
AcDbLayerTableRecord
  2
YARDIMCI_GEOMETRI
 70
     0
 62
    -6
  6
Continuous
290
     0
370
    -3
390
F
  0
LAYER
  5
75
330
2
100
AcDbSymbolTableRecord
100
AcDbLayerTableRecord
  2
SAYFA_CERCEVESI
 70
     0
 62
     7
  6
Continuous
370
    25
390
F
  0
LAYER
  5
76
330
2
100
AcDbSymbolTableRecord
100
AcDbLayerTableRecord
  2
ANTET
 70
     0
 62
     7
  6
Continuous
370
    -3
390
F
  0
LAYER
  5
77
330
2
100
AcDbSymbolTableRecord
100
AcDbLayerTableRecord
  2
OLCU
 70
     0
 62
   150
  6
Continuous
370
    -3
390
F
  0
LAYER
  5
78
330
2
100
AcDbSymbolTableRecord
100
AcDbLayerTableRecord
  2
METIN
 70
     0
 62
    96
  6
Continuous
370
    -3
390
F
  0
LAYER
  5
79
330
2
100
AcDbSymbolTableRecord
100
AcDbLayerTableRecord
  2
BALON
 70
     0
 62
     5
  6
Continuous
370
    -3
390
F
  0
LAYER
  5
7A
330
2
100
AcDbSymbolTableRecord
100
AcDbLayerTableRecord
  2
VURGU
 70
     0
 62
     7
  6
Continuous
370
    -3
390
F
  0
LAYER
  5
7B
330
2
100
AcDbSymbolTableRecord
100
AcDbLayerTableRecord
  2
SILIK
 70
     0
 62
     7
  6
Continuous
370
    -3
390
F
  0
LAYER
  5
7C
330
2
100
AcDbSymbolTableRecord
100
AcDbLayerTableRecord
  2
MODEL
 70
     0
 62
     7
  6
Continuous
370
    -3
390
F
  0
LAYER
  5
7D
330
2
100
AcDbSymbolTableRecord
100
AcDbLayerTableRecord
  2
DETAYLANDıRMA
 70
     0
 62
   190
  6
Continuous
370
    -3
390
F
  0
LAYER
  5
7E
330
2
100
AcDbSymbolTableRecord
100
AcDbLayerTableRecord
  2
TOLERANS
 70
     0
 62
   230
  6
Continuous
370
    -3
390
F
  0
LAYER
  5
7F
330
2
100
AcDbSymbolTableRecord
100
AcDbLayerTableRecord
  2
MERKEZ_CIZGILERI
 70
     0
 62
    30
  6
Continuous
370
    -3
390
F
  0
LAYER
  5
80
330
2
100
AcDbSymbolTableRecord
100
AcDbLayerTableRecord
  2
KESIT-DETAY_CIZGILERI
 70
     0
 62
     7
  6
Continuous
370
    -3
390
F
  0
LAYER
  5
81
330
2
100
AcDbSymbolTableRecord
100
AcDbLayerTableRecord
  2
\U+041E\U+0421\U+0415\U+0412\U+042B\U+0415
 70
     0
 62
     7
  6
Continuous
370
    -3
390
F
  0
LAYER
  5
82
330
2
100
AcDbSymbolTableRecord
100
AcDbLayerTableRecord
  2
\U+0412\U+041E\U+0414\U+042F\U+041D\U+042B\U+0415_\U+0417\U+041D\U+0410\U+041A\U+0418
 70
     0
 62
    11
  6
Continuous
370
    -3
390
F
  0
ENDTAB
  0
TABLE
  2
STYLE
  5
3
330
0
100
AcDbSymbolTable
 70
     1
  0
STYLE
  5
11
330
3
100
AcDbSymbolTableRecord
100
AcDbTextStyleTableRecord
  2
Standard
 70
     0
 40
0.0
 41
1.0
 50
0.0
 71
     0
 42
3.5
  3
txt
  4

  0
ENDTAB
  0
TABLE
  2
VIEW
  5
6
330
0
100
AcDbSymbolTable
 70
     0
  0
ENDTAB
  0
TABLE
  2
UCS
  5
7
330
0
100
AcDbSymbolTable
 70
     0
  0
ENDTAB
  0
TABLE
  2
APPID
  5
9
330
0
100
AcDbSymbolTable
 70
     1
  0
APPID
  5
12
330
9
100
AcDbSymbolTableRecord
100
AcDbRegAppTableRecord
  2
ACAD
 70
     0
  0
ENDTAB
  0
TABLE
  2
DIMSTYLE
  5
A
330
0
100
AcDbSymbolTable
 70
     1
100
AcDbDimStyleTable
  0
DIMSTYLE
105
27
330
A
100
AcDbSymbolTableRecord
100
AcDbDimStyleTableRecord
  2
ISO-25
 70
     0
 41
2.5
 42
0.625
 43
3.75
 44
1.25
 73
     0
 74
     0
 77
     1
 78
     8
140
2.5
141
2.5
143
0.0393700787
147
0.625
171
     3
172
     1
178
     0
271
     2
272
     2
274
     3
278
    44
283
     0
284
     8
340
11
  0
ENDTAB
  0
TABLE
  2
BLOCK_RECORD
  5
1
330
0
100
AcDbSymbolTable
 70
     2
  0
BLOCK_RECORD
  5
1F
330
1
100
AcDbSymbolTableRecord
100
AcDbBlockTableRecord
  2
*Model_Space
340
22
  0
BLOCK_RECORD
  5
1B
330
1
100
AcDbSymbolTableRecord
100
AcDbBlockTableRecord
  2
*Paper_Space
340
1E
  0
BLOCK_RECORD
  5
23
330
1
100
AcDbSymbolTableRecord
100
AcDbBlockTableRecord
  2
*Paper_Space0
340
26
  0
BLOCK_RECORD
  5
88
330
1
100
AcDbSymbolTableRecord
100
AcDbBlockTableRecord
  2
SW_CENTERMARKSYMBOL_0
340
0
102
{BLKREFS
331
93
102
}
  0
ENDTAB
  0
ENDSEC
  0
SECTION
  2
BLOCKS
  0
BLOCK
  5
20
330
1F
100
AcDbEntity
  8
0
100
AcDbBlockBegin
  2
*Model_Space
 70
     0
 10
0.0
 20
0.0
 30
0.0
  3
*Model_Space
  1

  0
ENDBLK
  5
21
330
1F
100
AcDbEntity
  8
0
100
AcDbBlockEnd
  0
BLOCK
  5
1C
330
1B
100
AcDbEntity
 67
     1
  8
0
100
AcDbBlockBegin
  2
*Paper_Space
 70
     0
 10
0.0
 20
0.0
 30
0.0
  3
*Paper_Space
  1

  0
ENDBLK
  5
1D
330
1B
100
AcDbEntity
 67
     1
  8
0
100
AcDbBlockEnd
  0
BLOCK
  5
24
330
23
100
AcDbEntity
  8
0
100
AcDbBlockBegin
  2
*Paper_Space0
 70
     0
 10
0.0
 20
0.0
 30
0.0
  3
*Paper_Space0
  1

  0
ENDBLK
  5
25
330
23
100
AcDbEntity
  8
0
100
AcDbBlockEnd
  0
BLOCK
  5
89
330
88
100
AcDbEntity
  8
0
100
AcDbBlockBegin
  2
SW_CENTERMARKSYMBOL_0
 70
     0
 10
0.0
 20
0.0
 30
0.0
  3
SW_CENTERMARKSYMBOL_0
  1

  0
LINE
  5
8B
330
88
100
AcDbEntity
  8
FORMAT
 62
     0
100
AcDbLine
 10
0.0
 20
0.0
 30
0.0
 11
0.0
 21
2.5
 31
0.0
  0
LINE
  5
8C
330
88
100
AcDbEntity
  8
FORMAT
 62
     0
100
AcDbLine
 10
0.0
 20
0.0
 30
0.0
 11
-2.5
 21
0.0
 31
0.0
  0
LINE
  5
8D
330
88
100
AcDbEntity
  8
FORMAT
 62
     0
100
AcDbLine
 10
0.0
 20
0.0
 30
0.0
 11
0.0
 21
-2.5
 31
0.0
  0
LINE
  5
8E
330
88
100
AcDbEntity
  8
FORMAT
 62
     0
100
AcDbLine
 10
0.0
 20
0.0
 30
0.0
 11
2.5
 21
0.0
 31
0.0
  0
LINE
  5
8F
330
88
100
AcDbEntity
  8
FORMAT
 62
     0
100
AcDbLine
 10
0.0
 20
5.0
 30
0.0
 11
0.0
 21
82.5
 31
0.0
  0
LINE
  5
90
330
88
100
AcDbEntity
  8
FORMAT
 62
     0
100
AcDbLine
 10
-5.0
 20
0.0
 30
0.0
 11
-82.5
 21
0.0
 31
0.0
  0
LINE
  5
91
330
88
100
AcDbEntity
  8
FORMAT
 62
     0
100
AcDbLine
 10
0.0
 20
-5.0
 30
0.0
 11
0.0
 21
-82.5
 31
0.0
  0
LINE
  5
92
330
88
100
AcDbEntity
  8
FORMAT
 62
     0
100
AcDbLine
 10
5.0
 20
0.0
 30
0.0
 11
82.5
 21
0.0
 31
0.0
  0
ENDBLK
  5
8A
330
88
100
AcDbEntity
  8
0
100
AcDbBlockEnd
  0
ENDSEC
  0
SECTION
  2
ENTITIES
  0
CIRCLE
  5
83
330
1F
100
AcDbEntity
  8
0
  6
Continuous
 62
     7
370
    25
100
AcDbCircle
 10
139.395004093
 20
107.5851680021
 30
0.0
 40
80.00000000000001
  0
CIRCLE
  5
84
330
1F
100
AcDbEntity
  8
0
  6
Continuous
 62
     7
370
    25
100
AcDbCircle
 10
139.395004093
 20
107.5851680021
 30
0.0
 40
65.40000000000002
  0
CIRCLE
  5
85
330
1F
100
AcDbEntity
  8
0
  6
Continuous
 62
     7
370
    25
100
AcDbCircle
 10
139.395004093
 20
107.5851680021
 30
0.0
 40
64.84567905194025
  0
CIRCLE
  5
86
330
1F
100
AcDbEntity
  8
0
  6
Continuous
 62
     7
370
    25
100
AcDbCircle
 10
139.395004093
 20
107.5851680021
 30
0.0
 40
37.35432094805977
  0
CIRCLE
  5
87
330
1F
100
AcDbEntity
  8
0
  6
Continuous
 62
     7
370
    25
100
AcDbCircle
 10
139.395004093
 20
107.5851680021
 30
0.0
 40
36.8
  0
INSERT
  5
93
330
1F
100
AcDbEntity
  8
FORMAT
 62
     7
100
AcDbBlockReference
  2
SW_CENTERMARKSYMBOL_0
 10
139.395004093
 20
107.5851680021
 30
0.0
  0
ARC
  5
94
330
1F
100
AcDbEntity
  8
0
  6
Continuous
 62
     7
370
    25
100
AcDbCircle
 10
-139.0843637535
 20
185.5851680021
 30
0.0
 40
2.00000000000002
100
AcDbArc
 50
62.7648533007
 51
90.0
  0
ARC
  5
95
330
1F
100
AcDbEntity
  8
0
  6
Continuous
 62
     7
370
    25
100
AcDbCircle
 10
-139.0843637535
 20
29.5851680021
 30
0.0
 40
2.00000000000002
100
AcDbArc
 50
270.0
 51
297.2351466993
  0
LINE
  5
96
330
1F
100
AcDbEntity
  8
0
  6
Continuous
 62
     7
370
    25
100
AcDbLine
 10
-139.0843638107
 20
187.585166214
 30
0.0
 11
-236.599868618
 21
187.585166214
 31
0.0
  0
LINE
  5
97
330
1F
100
AcDbEntity
  8
0
  6
Continuous
 62
     7
370
    25
100
AcDbLine
 10
-236.599868618
 20
27.5851697903
 30
0.0
 11
-139.0843638107
 21
27.5851697903
 31
0.0
  0
LINE
  5
98
330
1F
100
AcDbEntity
  8
0
  6
Continuous
 62
     7
370
    25
100
AcDbLine
 10
-138.1690767482
 20
27.8068990688
 30
0.0
 11
-71.0306488797
 21
62.3634406607
 31
0.0
  0
LINE
  5
99
330
1F
100
AcDbEntity
  8
0
  6
Continuous
 62
     7
370
    25
100
AcDbLine
 10
-71.0306488797
 20
152.8068953435
 30
0.0
 11
-138.1690767482
 21
187.3634369354
 31
0.0
  0
ARC
  5
9A
330
1F
100
AcDbEntity
  8
0
  6
Continuous
 62
     7
370
    25
100
AcDbCircle
 10
-70.1153631569
 20
154.5851680021
 30
0.0
 40
2.000000000000013
100
AcDbArc
 50
242.7648533007
 51
270.0
  0
ARC
  5
9B
330
1F
100
AcDbEntity
  8
0
  6
Continuous
 62
     7
370
    25
100
AcDbCircle
 10
-70.1153631569
 20
60.5851680021
 30
0.0
 40
2.0
100
AcDbArc
 50
90.0
 51
117.2351466993
  0
LINE
  5
9C
330
1F
100
AcDbEntity
  8
0
  6
Continuous
 62
     7
370
    25
100
AcDbLine
 10
8.4001361504
 20
152.5851697903
 30
0.0
 11
-70.1153636798
 21
152.5851697903
 31
0.0
  0
LINE
  5
9D
330
1F
100
AcDbEntity
  8
0
  6
Continuous
 62
     7
370
    25
100
AcDbLine
 10
-70.1153636798
 20
62.585166214
 30
0.0
 11
8.4001361504
 21
62.585166214
 31
0.0
  0
LINE
  5
9E
330
1F
100
AcDbEntity
  8
0
  6
Continuous
 62
     7
370
    25
100
AcDbLine
 10
-236.599868618
 20
187.585166214
 30
0.0
 11
-236.599868618
 21
27.5851697903
 31
0.0
  0
LINE
  5
9F
330
1F
100
AcDbEntity
  8
0
  6
Continuous
 62
     7
370
    25
100
AcDbLine
 10
8.4001361504
 20
152.5851697903
 30
0.0
 11
8.4001361504
 21
62.585166214
 31
0.0
  0
LINE
  5
A0
330
1F
100
AcDbEntity
  8
0
  6
Continuous
 62
     1
370
    25
100
AcDbLine
 10
-138.1690767482
 20
187.3634369354
 30
0.0
 11
-138.1690767482
 21
27.8068990688
 31
0.0
  0
LINE
  5
A1
330
1F
100
AcDbEntity
  8
0
  6
Continuous
 62
     1
370
    25
100
AcDbLine
 10
-139.0843638107
 20
187.585166214
 30
0.0
 11
-139.0843638107
 21
27.5851697903
 31
0.0
  0
LINE
  5
A2
330
1F
100
AcDbEntity
  8
0
  6
Continuous
 62
     1
370
    25
100
AcDbLine
 10
-71.0306488797
 20
152.8068953435
 30
0.0
 11
-71.0306488797
 21
62.3634406607
 31
0.0
  0
LINE
  5
A3
330
1F
100
AcDbEntity
  8
0
  6
Continuous
 62
     1
370
    25
100
AcDbLine
 10
-70.1153636798
 20
152.5851697903
 30
0.0
 11
-70.1153636798
 21
62.585166214
 31
0.0
  0
ARC
  5
A4
330
1F
100
AcDbEntity
  8
0
  6
Continuous
 62
     7
370
    25
100
AcDbCircle
 10
412.1261283973
 20
29.5851680021
 30
0.0
 40
2.000000000000004
100
AcDbArc
 50
242.7648533007
 51
270.0
  0
ARC
  5
A5
330
1F
100
AcDbEntity
  8
0
  6
Continuous
 62
     7
370
    25
100
AcDbCircle
 10
412.1261283973
 20
185.5851680021
 30
0.0
 40
2.0
100
AcDbArc
 50
90.0
 51
117.2351466993
  0
LINE
  5
A6
330
1F
100
AcDbEntity
  8
0
  6
Continuous
 62
     7
370
    25
100
AcDbLine
 10
412.1261284546
 20
27.5851697903
 30
0.0
 11
509.6416332618
 21
27.5851697903
 31
0.0
  0
LINE
  5
A7
330
1F
100
AcDbEntity
  8
0
  6
Continuous
 62
     7
370
    25
100
AcDbLine
 10
509.6416332618
 20
187.585166214
 30
0.0
 11
412.1261284546
 21
187.585166214
 31
0.0
  0
LINE
  5
A8
330
1F
100
AcDbEntity
  8
0
  6
Continuous
 62
     7
370
    25
100
AcDbLine
 10
411.2108413921
 20
187.3634369354
 30
0.0
 11
344.0724135236
 21
152.8068953435
 31
0.0
  0
LINE
  5
A9
330
1F
100
AcDbEntity
  8
0
  6
Continuous
 62
     7
370
    25
100
AcDbLine
 10
344.0724135236
 20
62.3634406607
 30
0.0
 11
411.2108413921
 21
27.8068990688
 31
0.0
  0
ARC
  5
AA
330
1F
100
AcDbEntity
  8
0
  6
Continuous
 62
     7
370
    25
100
AcDbCircle
 10
343.1571278007
 20
60.5851680021
 30
0.0
 40
2.000000000000007
100
AcDbArc
 50
62.7648533007
 51
90.0
  0
ARC
  5
AB
330
1F
100
AcDbEntity
  8
0
  6
Continuous
 62
     7
370
    25
100
AcDbCircle
 10
343.1571278007
 20
154.5851680021
 30
0.0
 40
2.00000000000002
100
AcDbArc
 50
270.0
 51
297.2351466993
  0
LINE
  5
AC
330
1F
100
AcDbEntity
  8
0
  6
Continuous
 62
     7
370
    25
100
AcDbLine
 10
264.6416284934
 20
62.585166214
 30
0.0
 11
343.1571283237
 21
62.585166214
 31
0.0
  0
LINE
  5
AD
330
1F
100
AcDbEntity
  8
0
  6
Continuous
 62
     7
370
    25
100
AcDbLine
 10
343.1571283237
 20
152.5851697903
 30
0.0
 11
264.6416284934
 21
152.5851697903
 31
0.0
  0
LINE
  5
AE
330
1F
100
AcDbEntity
  8
0
  6
Continuous
 62
     7
370
    25
100
AcDbLine
 10
509.6416332618
 20
107.5851680021
 30
0.0
 11
509.6416332618
 21
187.585166214
 31
0.0
  0
LINE
  5
AF
330
1F
100
AcDbEntity
  8
0
  6
Continuous
 62
     7
370
    25
100
AcDbLine
 10
509.6416332618
 20
27.5851697903
 30
0.0
 11
509.6416332618
 21
107.5851680021
 31
0.0
  0
LINE
  5
B0
330
1F
100
AcDbEntity
  8
0
  6
Continuous
 62
     7
370
    25
100
AcDbLine
 10
264.6416284934
 20
107.5851680021
 30
0.0
 11
264.6416284934
 21
152.5851697903
 31
0.0
  0
LINE
  5
B1
330
1F
100
AcDbEntity
  8
0
  6
Continuous
 62
     7
370
    25
100
AcDbLine
 10
264.6416284934
 20
62.585166214
 30
0.0
 11
264.6416284934
 21
107.5851680021
 31
0.0
  0
LINE
  5
B2
330
1F
100
AcDbEntity
  8
0
  6
Continuous
 62
     1
370
    25
100
AcDbLine
 10
411.2108413921
 20
107.5851680021
 30
0.0
 11
411.2108413921
 21
187.3634369354
 31
0.0
  0
LINE
  5
B3
330
1F
100
AcDbEntity
  8
0
  6
Continuous
 62
     1
370
    25
100
AcDbLine
 10
411.2108413921
 20
27.8068990688
 30
0.0
 11
411.2108413921
 21
107.5851680021
 31
0.0
  0
LINE
  5
B4
330
1F
100
AcDbEntity
  8
0
  6
Continuous
 62
     1
370
    25
100
AcDbLine
 10
412.1261284546
 20
107.5851680021
 30
0.0
 11
412.1261284546
 21
187.585166214
 31
0.0
  0
LINE
  5
B5
330
1F
100
AcDbEntity
  8
0
  6
Continuous
 62
     1
370
    25
100
AcDbLine
 10
412.1261284546
 20
27.5851697903
 30
0.0
 11
412.1261284546
 21
107.5851680021
 31
0.0
  0
LINE
  5
B6
330
1F
100
AcDbEntity
  8
0
  6
Continuous
 62
     1
370
    25
100
AcDbLine
 10
344.0724135236
 20
107.5851680021
 30
0.0
 11
344.0724135236
 21
152.8068953435
 31
0.0
  0
LINE
  5
B7
330
1F
100
AcDbEntity
  8
0
  6
Continuous
 62
     1
370
    25
100
AcDbLine
 10
344.0724135236
 20
62.3634406607
 30
0.0
 11
344.0724135236
 21
107.5851680021
 31
0.0
  0
LINE
  5
B8
330
1F
100
AcDbEntity
  8
0
  6
Continuous
 62
     1
370
    25
100
AcDbLine
 10
343.1571283237
 20
107.5851680021
 30
0.0
 11
343.1571283237
 21
152.5851697903
 31
0.0
  0
LINE
  5
B9
330
1F
100
AcDbEntity
  8
0
  6
Continuous
 62
     1
370
    25
100
AcDbLine
 10
343.1571283237
 20
62.585166214
 30
0.0
 11
343.1571283237
 21
107.5851680021
 31
0.0
  0
ARC
  5
BA
330
1F
100
AcDbEntity
  8
0
  6
Continuous
 62
     7
370
    25
100
AcDbCircle
 10
217.395004093
 20
356.6549685406
 30
0.0
 40
2.0
100
AcDbArc
 50
332.7648533007
 51
0.0
  0
ARC
  5
BB
330
1F
100
AcDbEntity
  8
0
  6
Continuous
 62
     7
370
    25
100
AcDbCircle
 10
61.395004093
 20
356.6549685406
 30
0.0
 40
2.0
100
AcDbArc
 50
180.0
 51
207.2351466993
  0
LINE
  5
BC
330
1F
100
AcDbEntity
  8
0
  6
Continuous
 62
     7
370
    25
100
AcDbLine
 10
219.3950023049
 20
356.6549685979
 30
0.0
 11
219.3950023049
 21
454.1704734051
 31
0.0
  0
LINE
  5
BD
330
1F
100
AcDbEntity
  8
0
  6
Continuous
 62
     7
370
    25
100
AcDbLine
 10
59.3950058812
 20
454.1704734051
 30
0.0
 11
59.3950058812
 21
356.6549685979
 31
0.0
  0
LINE
  5
BE
330
1F
100
AcDbEntity
  8
0
  6
Continuous
 62
     7
370
    25
100
AcDbLine
 10
59.6167351598
 20
355.7396815354
 30
0.0
 11
94.1732767516
 21
288.6012536669
 31
0.0
  0
LINE
  5
BF
330
1F
100
AcDbEntity
  8
0
  6
Continuous
 62
     7
370
    25
100
AcDbLine
 10
184.6167314345
 20
288.6012536669
 30
0.0
 11
219.1732730263
 21
355.7396815354
 31
0.0
  0
ARC
  5
C0
330
1F
100
AcDbEntity
  8
0
  6
Continuous
 62
     7
370
    25
100
AcDbCircle
 10
186.395004093
 20
287.685967944
 30
0.0
 40
1.999999999999972
100
AcDbArc
 50
152.7648533007
 51
180.0
  0
ARC
  5
C1
330
1F
100
AcDbEntity
  8
0
  6
Continuous
 62
     7
370
    25
100
AcDbCircle
 10
92.395004093
 20
287.685967944
 30
0.0
 40
1.999999999999986
100
AcDbArc
 50
0.0
 51
27.2351466993
  0
LINE
  5
C2
330
1F
100
AcDbEntity
  8
0
  6
Continuous
 62
     7
370
    25
100
AcDbLine
 10
184.3950058812
 20
209.1704686367
 30
0.0
 11
184.3950058812
 21
287.685968467
 31
0.0
  0
LINE
  5
C3
330
1F
100
AcDbEntity
  8
0
  6
Continuous
 62
     7
370
    25
100
AcDbLine
 10
94.3950023049
 20
287.685968467
 30
0.0
 11
94.3950023049
 21
209.1704686367
 31
0.0
  0
LINE
  5
C4
330
1F
100
AcDbEntity
  8
0
  6
Continuous
 62
     7
370
    25
100
AcDbLine
 10
219.3950023049
 20
454.1704734051
 30
0.0
 11
59.3950058812
 21
454.1704734051
 31
0.0
  0
LINE
  5
C5
330
1F
100
AcDbEntity
  8
0
  6
Continuous
 62
     7
370
    25
100
AcDbLine
 10
184.3950058812
 20
209.1704686367
 30
0.0
 11
94.3950023049
 21
209.1704686367
 31
0.0
  0
LINE
  5
C6
330
1F
100
AcDbEntity
  8
0
  6
Continuous
 62
     1
370
    25
100
AcDbLine
 10
219.1732730263
 20
355.7396815354
 30
0.0
 11
59.6167351598
 21
355.7396815354
 31
0.0
  0
LINE
  5
C7
330
1F
100
AcDbEntity
  8
0
  6
Continuous
 62
     1
370
    25
100
AcDbLine
 10
219.3950023049
 20
356.6549685979
 30
0.0
 11
59.3950058812
 21
356.6549685979
 31
0.0
  0
LINE
  5
C8
330
1F
100
AcDbEntity
  8
0
  6
Continuous
 62
     1
370
    25
100
AcDbLine
 10
184.6167314345
 20
288.6012536669
 30
0.0
 11
94.1732767516
 21
288.6012536669
 31
0.0
  0
LINE
  5
C9
330
1F
100
AcDbEntity
  8
0
  6
Continuous
 62
     1
370
    25
100
AcDbLine
 10
184.3950058812
 20
287.685968467
 30
0.0
 11
94.3950023049
 21
287.685968467
 31
0.0
  0
ARC
  5
CA
330
1F
100
AcDbEntity
  8
0
  6
Continuous
 62
     7
370
    25
100
AcDbCircle
 10
61.395004093
 20
-141.0204551584
 30
0.0
 40
2.000000000000006
100
AcDbArc
 50
152.7648533007
 51
180.0
  0
ARC
  5
CB
330
1F
100
AcDbEntity
  8
0
  6
Continuous
 62
     7
370
    25
100
AcDbCircle
 10
217.395004093
 20
-141.0204551584
 30
0.0
 40
2.000000000000006
100
AcDbArc
 50
0.0
 51
27.2351466993
  0
LINE
  5
CC
330
1F
100
AcDbEntity
  8
0
  6
Continuous
 62
     7
370
    25
100
AcDbLine
 10
59.3950058812
 20
-141.0204552157
 30
0.0
 11
59.3950058812
 21
-238.5359600229
 31
0.0
  0
LINE
  5
CD
330
1F
100
AcDbEntity
  8
0
  6
Continuous
 62
     7
370
    25
100
AcDbLine
 10
219.3950023049
 20
-238.5359600229
 30
0.0
 11
219.3950023049
 21
-141.0204552157
 31
0.0
  0
LINE
  5
CE
330
1F
100
AcDbEntity
  8
0
  6
Continuous
 62
     7
370
    25
100
AcDbLine
 10
219.1732730263
 20
-140.1051681531
 30
0.0
 11
184.6167314345
 21
-72.9667402846
 31
0.0
  0
LINE
  5
CF
330
1F
100
AcDbEntity
  8
0
  6
Continuous
 62
     7
370
    25
100
AcDbLine
 10
94.1732767516
 20
-72.9667402846
 30
0.0
 11
59.6167351598
 21
-140.1051681531
 31
0.0
  0
ARC
  5
D0
330
1F
100
AcDbEntity
  8
0
  6
Continuous
 62
     7
370
    25
100
AcDbCircle
 10
92.395004093
 20
-72.0514545618
 30
0.0
 40
2.0
100
AcDbArc
 50
332.7648533007
 51
0.0
  0
ARC
  5
D1
330
1F
100
AcDbEntity
  8
0
  6
Continuous
 62
     7
370
    25
100
AcDbCircle
 10
186.395004093
 20
-72.0514545618
 30
0.0
 40
1.999999999999988
100
AcDbArc
 50
180.0
 51
207.2351466993
  0
LINE
  5
D2
330
1F
100
AcDbEntity
  8
0
  6
Continuous
 62
     7
370
    25
100
AcDbLine
 10
94.3950023049
 20
6.4640447455
 30
0.0
 11
94.3950023049
 21
-72.0514550848
 31
0.0
  0
LINE
  5
D3
330
1F
100
AcDbEntity
  8
0
  6
Continuous
 62
     7
370
    25
100
AcDbLine
 10
184.3950058812
 20
-72.0514550848
 30
0.0
 11
184.3950058812
 21
6.4640447455
 31
0.0
  0
LINE
  5
D4
330
1F
100
AcDbEntity
  8
0
  6
Continuous
 62
     7
370
    25
100
AcDbLine
 10
59.3950058812
 20
-238.5359600229
 30
0.0
 11
219.3950023049
 21
-238.5359600229
 31
0.0
  0
LINE
  5
D5
330
1F
100
AcDbEntity
  8
0
  6
Continuous
 62
     7
370
    25
100
AcDbLine
 10
94.3950023049
 20
6.4640447455
 30
0.0
 11
184.3950058812
 21
6.4640447455
 31
0.0
  0
LINE
  5
D6
330
1F
100
AcDbEntity
  8
0
  6
Continuous
 62
     1
370
    25
100
AcDbLine
 10
59.6167351598
 20
-140.1051681531
 30
0.0
 11
219.1732730263
 21
-140.1051681531
 31
0.0
  0
LINE
  5
D7
330
1F
100
AcDbEntity
  8
0
  6
Continuous
 62
     1
370
    25
100
AcDbLine
 10
59.3950058812
 20
-141.0204552157
 30
0.0
 11
219.3950023049
 21
-141.0204552157
 31
0.0
  0
LINE
  5
D8
330
1F
100
AcDbEntity
  8
0
  6
Continuous
 62
     1
370
    25
100
AcDbLine
 10
94.1732767516
 20
-72.9667402846
 30
0.0
 11
184.6167314345
 21
-72.9667402846
 31
0.0
  0
LINE
  5
D9
330
1F
100
AcDbEntity
  8
0
  6
Continuous
 62
     1
370
    25
100
AcDbLine
 10
94.3950023049
 20
-72.0514550848
 30
0.0
 11
184.3950058812
 21
-72.0514550848
 31
0.0
  0
LINE
  5
DA
330
1F
100
AcDbEntity
  8
0
  6
Continuous
 62
     7
370
    25
100
AcDbLine
 10
414.5251314736
 20
-31.661486572
 30
0.0
 11
345.5712567536
 21
8.1447380046
 31
0.0
  0
LINE
  5
DB
330
1F
100
AcDbEntity
  8
0
  6
Continuous
 62
     7
370
    25
100
AcDbLine
 10
265.5777605385
 20
-130.4230758877
 30
0.0
 11
334.5316352585
 21
-170.2293004643
 31
0.0
  0
SPLINE
  5
DC
330
1F
100
AcDbEntity
  8
0
  6
Continuous
 62
     7
370
    25
100
AcDbSpline
210
0.0
220
0.0
230
1.0
 70
     8
 71
     3
 72
    12
 73
     8
 74
     0
 42
0.000000001
 43
0.00000001
 40
0.0
 40
0.0
 40
0.0
 40
0.0
 40
0.2382851512521527
 40
0.4771634682231837
 40
0.7152210243363196
 40
0.9525125159105627
 40
1.0
 40
1.0
 40
1.0
 40
1.0
 10
424.7354768456939
 20
-41.57734699540713
 30
0.0
 10
424.2585040751786
 20
-40.8676021165094
 30
0.0
 10
423.3033712008422
 20
-39.44634558336477
 30
0.0
 10
421.70672644428
 20
-37.50667839458237
 30
0.0
 10
419.9853861917687
 20
-35.7344671782657
 30
0.0
 10
418.6612597157871
 20
-34.51962374409888
 30
0.0
 10
417.8794572874413
 20
-33.94921914442507
 30
0.0
 10
417.7490901130716
 20
-33.85410299588065
 30
0.0
  0
SPLINE
  5
DD
330
1F
100
AcDbEntity
  8
0
  6
Continuous
 62
     7
370
    25
100
AcDbSpline
210
0.0
220
0.0
230
1.0
 70
     8
 71
     3
 72
    12
 73
     8
 74
     0
 42
0.000000001
 43
0.00000001
 40
0.0
 40
0.0
 40
0.0
 40
0.0
 40
0.0951077259163153
 40
0.3479306972203802
 40
0.6012050080899249
 40
0.8551321480766182
 40
1.0
 40
1.0
 40
1.0
 40
1.0
 10
338.0255168038447
 20
-171.9096695026817
 30
0.0
 10
338.3030451472129
 20
-172.0290788091051
 30
0.0
 10
339.3183215516922
 20
-172.465911493708
 30
0.0
 10
341.1653374257225
 20
-173.0315744781688
 30
0.0
 10
343.561856865826
 20
-173.5955635942847
 30
0.0
 10
345.6768317880125
 20
-173.9360511192528
 30
0.0
 10
347.0134387106176
 20
-174.0181530002533
 30
0.0
 10
347.4989798474717
 20
-174.0479776554789
 30
0.0
  0
LINE
  5
DE
330
1F
100
AcDbEntity
  8
0
  6
Continuous
 62
     7
370
    25
100
AcDbLine
 10
352.5457132939
 20
-174.0538919437
 30
0.0
 11
409.8220476249
 21
-169.9544263876
 31
0.0
  0
LINE
  5
DF
330
1F
100
AcDbEntity
  8
0
  6
Continuous
 62
     7
370
    25
100
AcDbLine
 10
451.938420013
 20
-96.9988240227
 30
0.0
 11
426.8456444272
 21
-45.3486866683
 31
0.0
  0
LINE
  5
E0
330
1F
100
AcDbEntity
  8
0
  6
Continuous
 62
     7
370
    25
100
AcDbLine
 10
501.3138455361
 20
-122.1769654083
 30
0.0
 11
449.6929729016
 21
-92.3768699493
 31
0.0
  0
LINE
  5
E1
330
1F
100
AcDbEntity
  8
0
  6
Continuous
 62
     7
370
    25
100
AcDbLine
 10
404.6966286465
 20
-170.3212683053
 30
0.0
 11
456.3175012809
 21
-200.1213637643
 31
0.0
  0
ARC
  5
E2
330
1F
100
AcDbEntity
  8
0
  6
Continuous
 62
     7
370
    25
100
AcDbCircle
 10
401.1158896491
 20
-54.8814252012
 30
0.0
 40
26.81367778302641
100
AcDbArc
 50
52.0502951085
 51
59.99407088
  0
ARC
  5
E3
330
1F
100
AcDbEntity
  8
0
  6
Continuous
 62
     7
370
    25
100
AcDbCircle
 10
347.946116173
 20
-146.9801988672
 30
0.0
 40
26.84155403985508
100
AcDbArc
 50
240.0155175226
 51
247.9068347192
  0
LWPOLYLINE
  5
E4
330
1F
100
AcDbEntity
  8
0
  6
Continuous
 62
     7
370
    25
100
AcDbPolyline
 90
      118
 70
   128
 43
0.0
 10
249.0059674155
 20
-93.7954926846
 10
249.087516299
 20
-90.2420827232
 10
249.3319364103
 20
-86.6047587971
 10
249.7385165211
 20
-82.8940125658
 10
250.3060817882
 20
-79.1205440122
 10
251.0330042896
 20
-75.2952268424
 10
251.9171872194
 20
-71.4290936552
 10
252.9560701567
 20
-67.5332971593
 10
254.1466712119
 20
-63.6190584652
 10
255.4855501486
 20
-59.6976746868
 10
256.96885053
 20
-55.7804444199
 10
258.5922944511
 20
-51.8786616579
 10
260.3511983433
 20
-48.003583854
 10
262.2404914139
 20
-44.1663786905
 10
264.2547288169
 20
-40.3781103914
 10
266.3881021897
 20
-36.6497001799
 10
268.6344580926
 20
-32.9919034656
 10
270.9873243499
 20
-29.4152611779
 10
273.4399126851
 20
-25.9300830356
 10
275.9851555983
 20
-22.5464232159
 10
278.6157116354
 20
-19.2740377689
 10
281.3239943637
 20
-16.1223618063
 10
284.1022000308
 20
-13.1004752831
 10
286.9423154671
 20
-10.2171045197
 10
289.8361523302
 20
-7.4805476792
 10
292.7753668611
 20
-4.8987059486
 10
295.7514842507
 20
-2.4790208028
 10
298.7559243224
 20
-0.2284713453
 10
301.7800239233
 20
1.8464629523
 10
304.8150642534
 20
3.7397936924
 10
307.852294244
 20
5.4460552988
 10
310.8829565703
 20
6.9603382844
 10
313.8983136636
 20
8.2782738492
 10
316.8896704316
 20
9.3960591639
 10
319.8484029046
 20
10.310473907
 10
322.7659802972
 20
11.0188808332
 10
325.6339903618
 20
11.5192343262
 10
328.4441630964
 20
11.8101001685
 10
331.1883970865
 20
11.890634246
 10
333.8587792613
 20
11.7606000369
 10
336.4476125526
 20
11.4203784948
 10
338.9474290656
 20
10.8709513175
 10
341.3510216894
 20
10.1138979023
 10
343.6514625355
 20
9.1514029487
 10
345.8421187439
 20
7.9862442896
 10
347.9166709213
 20
6.6217792011
 10
349.8691394836
 20
5.0619383165
 10
351.6938978266
 20
3.311227146
 10
353.3856775942
 20
1.37468349
 10
354.9396108254
 20
-0.7420982295
 10
356.3512088808
 20
-3.0330247628
 10
357.6164045895
 20
-5.4914827429
 10
358.7315522492
 20
-8.1103888764
 10
359.6934328942
 20
-10.8821899437
 10
360.4992701011
 20
-13.7988977821
 10
361.1467510613
 20
-16.8520976528
 10
361.6340002402
 20
-20.0329893031
 10
361.9596162551
 20
-23.3324002784
 10
362.1226613386
 20
-26.7408167198
 10
362.1226613386
 20
-30.2484137823
 10
361.9596162551
 20
-33.84507807
 10
361.6340002402
 20
-37.5204372939
 10
361.1467510613
 20
-41.2638948716
 10
360.4992701011
 20
-45.0646603466
 10
359.6934328942
 20
-48.9117680199
 10
358.7315522492
 20
-52.794132841
 10
357.6164045895
 20
-56.7005610566
 10
356.3512088808
 20
-60.6197829088
 10
354.9396108254
 20
-64.5405058657
 10
353.3856775942
 20
-68.4514207047
 10
351.6938978266
 20
-72.3412517034
 10
349.8691394836
 20
-76.1987840118
 10
347.9166709213
 20
-80.012897115
 10
345.8421187439
 20
-83.7725891637
 10
343.6514625355
 20
-87.4670256438
 10
341.3510216894
 20
-91.0855530631
 10
338.9474290656
 20
-94.6177354513
 10
336.4476125526
 20
-98.0533893395
 10
333.8587792613
 20
-101.382614177
 10
331.1883970865
 20
-104.5958060184
 10
328.4441630964
 20
-107.683697064
 10
325.6339903618
 20
-110.6373875987
 10
322.7659802972
 20
-113.4483680425
 10
319.8484029046
 20
-116.108524272
 10
316.8896704316
 20
-118.610189329
 10
313.8983136636
 20
-120.9461510235
 10
310.8829565703
 20
-123.1096726537
 10
307.852294244
 20
-125.094517909
 10
304.8150642534
 20
-126.8949674073
 10
301.7800239233
 20
-128.5058196437
 10
298.7559243224
 20
-129.9224364256
 10
295.7514842507
 20
-131.1407396383
 10
292.7753668611
 20
-132.1572064899
 10
289.8361523302
 20
-132.968909623
 10
286.9423154671
 20
-133.5735057062
 10
284.1022000308
 20
-133.9692624273
 10
281.3239943637
 20
-134.1550238907
 10
278.6157116354
 20
-134.1302646079
 10
275.9851555983
 20
-133.8950545133
 10
273.4399126851
 20
-133.4500696098
 10
270.9873243499
 20
-132.7965896848
 10
268.6344580926
 20
-131.9365089542
 10
266.3881021897
 20
-130.8722995592
 10
264.2547288169
 20
-129.6070298146
 10
262.2404914139
 20
-128.1443505195
 10
260.3511983433
 20
-126.4884767043
 10
258.5922944511
 20
-124.6441861079
 10
256.96885053
 20
-122.6167917997
 10
255.4855501486
 20
-120.4121436998
 10
254.1466712119
 20
-118.0365966376
 10
252.9560701567
 20
-115.4969966619
 10
251.9171872194
 20
-112.8006688739
 10
251.0330042896
 20
-109.9553915681
 10
250.3060817882
 20
-106.9693612536
 10
249.7385165211
 20
-103.851189609
 10
249.3319364103
 20
-100.6098707816
 10
249.087516299
 20
-97.2547483091
 10
249.0059674155
 20
-93.7954926846
  0
LWPOLYLINE
  5
E5
330
1F
100
AcDbEntity
  8
0
  6
Continuous
 62
     7
370
    25
100
AcDbPolyline
 90
      107
 70
   128
 43
0.0
 10
259.3297273228
 20
-87.8357129476
 10
259.4109442999
 20
-84.6252730498
 10
259.6543107399
 20
-81.3323385236
 10
260.0589784375
 20
-77.9684719374
 10
260.6235196682
 20
-74.5454920815
 10
261.3459535302
 20
-71.0754216883
 10
262.2237406758
 20
-67.5704515001
 10
263.2537964825
 20
-64.0428916007
 10
264.4325094923
 20
-60.5051311128
 10
265.7557335089
 20
-56.9695971318
 10
267.2188218423
 20
-53.4487106226
 10
268.8166378453
 20
-49.9548362298
 10
270.5435654503
 20
-46.5002472975
 10
272.3935407796
 20
-43.0970772026
 10
274.3600653159
 20
-39.7572813329
 10
276.4362322445
 20
-36.4925884199
 10
278.6147501604
 20
-33.3144686018
 10
280.8879615083
 20
-30.2340862761
 10
283.2478873628
 20
-27.2622590393
 10
285.6862366486
 20
-24.4094219455
 10
288.1944430186
 20
-21.6856031758
 10
290.7636990988
 20
-19.1003647244
 10
293.3849775609
 20
-16.662790234
 10
296.0490719527
 20
-14.3814370901
 10
298.7466250154
 20
-12.2643261576
 10
301.4681616105
 20
-10.3188862696
 10
304.204121812
 20
-8.5519564178
 10
306.94489548
 20
-6.9697414577
 10
309.6808556816
 20
-5.5777988993
 10
312.4023922767
 20
-4.3810195185
 10
315.0999453393
 20
-3.3836019796
 10
317.7640397312
 20
-2.5890572109
 10
320.3853181933
 20
-2.0001680091
 10
322.9545742734
 20
-1.6190065319
 10
325.4627806435
 20
-1.446911868
 10
327.9011299293
 20
-1.4844908008
 10
330.2610557838
 20
-1.7316056432
 10
332.5342671316
 20
-2.1873940127
 10
334.7127850476
 20
-2.850250584
 10
336.7889519761
 20
-3.7178521848
 10
338.7554765125
 20
-4.7871471538
 10
340.6054518417
 20
-6.0543811982
 10
342.3323794468
 20
-7.5151019584
 10
343.9301954498
 20
-9.1641772618
 10
345.3932837832
 20
-10.9958179379
 10
346.7165077998
 20
-13.0035899886
 10
347.8952208096
 20
-15.1804374033
 10
348.9252766163
 20
-17.5187201827
 10
349.8030637619
 20
-20.0102189049
 10
350.5254976238
 20
-22.6461849155
 10
351.0900388546
 20
-25.4173593405
 10
351.4947065522
 20
-28.314006548
 10
351.7380729922
 20
-31.3259561636
 10
351.8192899693
 20
-34.4426249356
 10
351.7380729922
 20
-37.6530648333
 10
351.4947065522
 20
-40.9459993596
 10
351.0900388546
 20
-44.3098659457
 10
350.5254976238
 20
-47.7328458016
 10
349.8030637619
 20
-51.2029161949
 10
348.9252766163
 20
-54.7078863831
 10
347.8952208096
 20
-58.2354462824
 10
346.7165077998
 20
-61.7732067703
 10
345.3932837832
 20
-65.3087407513
 10
343.9301954498
 20
-68.8296272605
 10
342.3323794468
 20
-72.3235016533
 10
340.6054518417
 20
-75.7780905856
 10
338.7554765125
 20
-79.1812606805
 10
336.7889519761
 20
-82.5210565502
 10
334.7127850476
 20
-85.7857494632
 10
332.5342671316
 20
-88.9638692814
 10
330.2610557838
 20
-92.044251607
 10
327.9011299293
 20
-95.0160788439
 10
325.4627806435
 20
-97.8689159376
 10
322.9545742734
 20
-100.5927347074
 10
320.3853181933
 20
-103.1779731588
 10
317.7640397312
 20
-105.6155476491
 10
315.0999453393
 20
-107.896900793
 10
312.4023922767
 20
-110.0140117256
 10
309.6808556816
 20
-111.9594516135
 10
306.94489548
 20
-113.7263814654
 10
304.204121812
 20
-115.3085964255
 10
301.4681616105
 20
-116.7005389838
 10
298.7466250154
 20
-117.8973183646
 10
296.0490719527
 20
-118.8947359036
 10
293.3849775609
 20
-119.6892806722
 10
290.7636990988
 20
-120.2781698741
 10
288.1944430186
 20
-120.6593313512
 10
285.6862366486
 20
-120.8314260151
 10
283.2478873628
 20
-120.7938470823
 10
280.8879615083
 20
-120.5467322399
 10
278.6147501604
 20
-120.0909438704
 10
276.4362322445
 20
-119.4280872992
 10
274.3600653159
 20
-118.5604856984
 10
272.3935407796
 20
-117.4911907293
 10
270.5435654503
 20
-116.2239566849
 10
268.8166378453
 20
-114.7632359247
 10
267.2188218423
 20
-113.1141606214
 10
265.7557335089
 20
-111.2825199453
 10
264.4325094923
 20
-109.2747478945
 10
263.2537964825
 20
-107.0979004798
 10
262.2237406758
 20
-104.7596177005
 10
261.3459535302
 20
-102.2681189782
 10
260.6235196682
 20
-99.6321529676
 10
260.0589784375
 20
-96.8609785426
 10
259.6543107399
 20
-93.9643313351
 10
259.4109442999
 20
-90.9523817196
 10
259.3297273228
 20
-87.8357129476
  0
ARC
  5
E6
330
1F
100
AcDbEntity
  8
0
  6
Continuous
 62
     7
370
    25
100
AcDbCircle
 10
390.9148795218
 20
-62.9392444735
 30
0.0
 40
39.99556382584292
100
AcDbArc
 50
15.7694157906
 51
32.0713775997
  0
ARC
  5
E7
330
1F
100
AcDbEntity
  8
0
  6
Continuous
 62
     7
370
    25
100
AcDbCircle
 10
349.9096245886
 20
-134.7902085469
 30
0.0
 40
39.34515558327161
100
AcDbArc
 50
266.7201417287
 51
284.7087322995
  0
LWPOLYLINE
  5
E8
330
1F
100
AcDbEntity
  8
0
  6
Continuous
 62
     7
370
    25
100
AcDbPolyline
 90
        3
 70
   128
 43
0.0
 10
451.938420013
 20
-96.9988240227
 10
452.6100853618
 20
-98.5252912043
 10
453.2393378101
 20
-100.3093437198
  0
LINE
  5
E9
330
1F
100
AcDbEntity
  8
0
  6
Continuous
 62
     7
370
    25
100
AcDbLine
 10
409.9524117786
 20
-169.94469633
 30
0.0
 11
409.8220476249
 21
-169.9544263876
 31
0.0
  0
LWPOLYLINE
  5
EA
330
1F
100
AcDbEntity
  8
0
  6
Continuous
 62
     7
370
    25
100
AcDbPolyline
 90
       46
 70
   128
 43
0.0
 10
501.3138455361
 20
-122.1769654083
 10
501.3156736556
 20
-122.1780211024
 10
502.8634771545
 20
-123.2042391446
 10
504.2887386914
 20
-124.4238161924
 10
505.5841958373
 20
-125.8305370615
 10
506.7432473423
 20
-127.4172330092
 10
507.759987379
 20
-129.1758182399
 10
508.6292318853
 20
-131.0973340143
 10
509.3465528077
 20
-133.1719874364
 10
509.9082965413
 20
-135.3892046872
 10
510.3115997347
 20
-137.7376892019
 10
510.5544050948
 20
-140.2054737634
 10
510.6354798263
 20
-142.7799813404
 10
510.5544050948
 20
-145.4480958098
 10
510.3115997347
 20
-148.1962174729
 10
509.9082965413
 20
-151.0103459433
 10
509.3465528077
 20
-153.8761387036
 10
508.6292318853
 20
-156.7789932339
 10
507.759987379
 20
-159.7041173529
 10
506.7432473423
 20
-162.6366056428
 10
505.5841958373
 20
-165.5615139735
 10
504.2887386914
 20
-168.4639378263
 10
502.8634771545
 20
-171.3290868176
 10
501.3156736556
 20
-174.1423607411
 10
499.6532149237
 20
-176.8894240906
 10
497.8845724753
 20
-179.55627906
 10
496.0187591506
 20
-182.1293362628
 10
494.0652830152
 20
-184.5954839294
 10
492.0340986278
 20
-186.9421555842
 10
489.935555674
 20
-189.1573901171
 10
487.780348258
 20
-191.2299006005
 10
485.5794595851
 20
-193.1491275169
 10
483.3441036804
 20
-194.9052906548
 10
481.0856723762
 20
-196.4894379633
 10
478.8156734085
 20
-197.8935025813
 10
476.5456744407
 20
-199.1103229843
 10
474.2872431365
 20
-200.1337049568
 10
472.0518872319
 20
-200.9584288108
 10
469.850998559
 20
-201.5802938674
 10
467.695791143
 20
-201.9961329005
 10
465.5972481892
 20
-202.2038244887
 10
463.5660638018
 20
-202.2023084095
 10
461.6125876663
 20
-201.9915962806
 10
459.7467743416
 20
-201.5727612886
 10
457.9781318933
 20
-200.9479374242
 10
456.3175012809
 20
-200.1213637643
  0
LWPOLYLINE
  5
EB
330
1F
100
AcDbEntity
  8
0
  6
Continuous
 62
     1
370
    25
100
AcDbPolyline
 90
       57
 70
   128
 43
0.0
 10
417.6054839464
 20
-33.7374758028
 10
418.8230142036
 20
-34.74428626
 10
420.6477725466
 20
-36.4949974306
 10
422.3395523142
 20
-38.4315410865
 10
423.8934855454
 20
-40.5483228061
 10
425.3050836008
 20
-42.8392493394
 10
426.5702793095
 20
-45.2977073195
 10
427.6854269692
 20
-47.9166134529
 10
428.6473076143
 20
-50.6884145202
 10
429.4531448211
 20
-53.6051223587
 10
430.1006257813
 20
-56.6583222293
 10
430.5878749603
 20
-59.8392138796
 10
430.9134909751
 20
-63.138624855
 10
431.0765360586
 20
-66.5470412963
 10
431.0765360586
 20
-70.0546383588
 10
430.9134909751
 20
-73.6513026466
 10
430.5878749603
 20
-77.3266618704
 10
430.1006257813
 20
-81.0701194482
 10
429.4531448211
 20
-84.8708849232
 10
428.6473076143
 20
-88.7179925965
 10
427.6854269692
 20
-92.6003574176
 10
426.5702793095
 20
-96.5067856332
 10
425.3050836008
 20
-100.4260074854
 10
423.8934855454
 20
-104.3467304422
 10
422.3395523142
 20
-108.2576452813
 10
420.6477725466
 20
-112.14747628
 10
418.8230142036
 20
-116.0050085884
 10
416.8705456413
 20
-119.8191216915
 10
414.7959934639
 20
-123.5788137402
 10
412.6053372556
 20
-127.2732502203
 10
410.3048964094
 20
-130.8917776397
 10
407.9013037857
 20
-134.4239600279
 10
405.4014872726
 20
-137.8596139161
 10
402.8126539813
 20
-141.1888387536
 10
400.1422718065
 20
-144.4020305949
 10
397.3980378164
 20
-147.4899216405
 10
394.5878650818
 20
-150.4436121753
 10
391.7198550173
 20
-153.2545926191
 10
388.8022776247
 20
-155.9147488485
 10
385.8435451516
 20
-158.4164139055
 10
382.8521883836
 20
-160.7523756001
 10
379.8368312903
 20
-162.9158972303
 10
376.8061689641
 20
-164.9007424855
 10
373.7689389735
 20
-166.7011919838
 10
370.7338986434
 20
-168.3120442202
 10
367.7097990424
 20
-169.7286610021
 10
364.7053589707
 20
-170.9469642148
 10
361.7292415812
 20
-171.9634310664
 10
358.7900270502
 20
-172.7751341996
 10
355.8961901871
 20
-173.3797302828
 10
353.0560747509
 20
-173.7754870039
 10
350.2778690838
 20
-173.9612484673
 10
347.5695863554
 20
-173.9364891844
 10
344.9390303183
 20
-173.7012790898
 10
342.3937874051
 20
-173.2562941863
 10
339.94119907
 20
-172.6028142614
 10
337.8506389927
 20
-171.8508716321
  0
LWPOLYLINE
  5
EC
330
1F
100
AcDbEntity
  8
0
  6
Continuous
 62
     1
370
    25
100
AcDbPolyline
 90
       41
 70
   128
 43
0.0
 10
429.4051382435
 20
-52.0697868385
 10
429.9481213613
 20
-54.1099559213
 10
430.5938058121
 20
-57.1546931924
 10
431.0797062919
 20
-60.3267679094
 10
431.4044214179
 20
-63.6170330932
 10
431.5670134227
 20
-67.0160034023
 10
431.5670134227
 20
-70.5138787072
 10
431.4044214179
 20
-74.1005737492
 10
431.0797062919
 20
-77.7657470373
 10
430.5938058121
 20
-81.4988305069
 10
429.9481213613
 20
-85.2890591766
 10
429.1445126691
 20
-89.1255084112
 10
428.1853030805
 20
-92.9971098911
 10
427.0732479458
 20
-96.8927094054
 10
425.8115556939
 20
-100.8010721762
 10
424.4038720271
 20
-104.7109269647
 10
422.8542483111
 20
-108.6110010492
 10
421.1671521121
 20
-112.4900521654
 10
419.3474540251
 20
-116.3368943613
 10
417.4003960645
 20
-120.1404344961
 10
415.3315916635
 20
-123.8897087425
 10
413.1470098697
 20
-127.5739038784
 10
410.8529437344
 20
-131.1824029112
 10
408.4560129469
 20
-134.7047957253
 10
405.9631243221
 20
-138.1309262263
 10
403.3814665317
 20
-141.4509227595
 10
400.7184863972
 20
-144.6552057121
 10
397.9818572791
 20
-147.7345453057
 10
395.1794738089
 20
-150.680046386
 10
392.3194123766
 20
-153.4832381542
 10
389.4099219105
 20
-156.1360186524
 10
386.4593896337
 20
-158.6307536201
 10
383.4763232825
 20
-160.9602380894
 10
380.4693241068
 20
-163.1177667255
 10
377.4470615158
 20
-165.0971058769
 10
374.4182496173
 20
-166.8925618726
 10
371.3916212878
 20
-168.4989534051
 10
368.3759029828
 20
-169.9116443233
 10
365.3797902064
 20
-171.126569961
 10
362.4119217454
 20
-172.1402215925
 10
359.8995704961
 20
-172.8459866711
  0
LWPOLYLINE
  5
ED
330
1F
100
AcDbEntity
  8
0
  6
Continuous
 62
     1
370
    25
100
AcDbPolyline
 90
       34
 70
   128
 43
0.0
 10
453.2393378101
 20
-100.3093437198
 10
453.3309413511
 20
-100.6101663397
 10
453.8954509717
 20
-102.8383101809
 10
454.3007429695
 20
-105.1983649449
 10
454.5447442464
 20
-107.6783096104
 10
454.6262167388
 20
-110.2655034567
 10
454.5447442464
 20
-112.9467634405
 10
454.3007429695
 20
-115.7084259837
 10
453.8954509717
 20
-118.5364209281
 10
453.3309413511
 20
-121.4163337038
 10
452.6100853618
 20
-124.333491449
 10
451.7365576821
 20
-127.2730274587
 10
450.7148074387
 20
-130.2199655944
 10
449.55004767
 20
-133.1592841612
 10
448.2482052764
 20
-136.076010201
 10
446.815921021
 20
-138.9552772873
 10
445.2604915767
 20
-141.7824137338
 10
443.5898405511
 20
-144.543012554
 10
441.8124829247
 20
-147.2230082649
 10
439.9374763186
 20
-149.8087460842
 10
437.9743748967
 20
-152.2870420028
 10
435.9331819499
 20
-154.6452770776
 10
433.8242998473
 20
-156.8714263247
 10
431.6584734011
 20
-158.9541492086
 10
429.4467398172
 20
-160.882830703
 10
427.2003700849
 20
-162.6476485861
 10
424.930810531
 20
-164.239601097
 10
422.6496266787
 20
-165.650581931
 10
420.3684428264
 20
-166.8733999109
 10
418.0988832725
 20
-167.9018250847
 10
415.8525135402
 20
-168.730610488
 10
413.6407799564
 20
-169.3555422343
 10
411.4749535101
 20
-169.7734293382
 10
409.9524117786
 20
-169.94469633
  0
LWPOLYLINE
  5
EE
330
1F
100
AcDbEntity
  8
0
  6
Continuous
 62
     1
370
    25
100
AcDbPolyline
 90
       39
 70
   128
 43
0.0
 10
450.9380355877
 20
-94.9396675846
 10
451.224404984
 20
-95.3668875265
 10
452.2411450208
 20
-97.1254727573
 10
453.110389527
 20
-99.0469885317
 10
453.8277104494
 20
-101.1216419538
 10
454.3894541831
 20
-103.3388592045
 10
454.7927573765
 20
-105.6873437193
 10
455.0355627366
 20
-108.1551282808
 10
455.1166374681
 20
-110.7296358578
 10
455.0355627366
 20
-113.3977503272
 10
454.7927573765
 20
-116.1458719903
 10
454.3894541831
 20
-118.9600004607
 10
453.8277104494
 20
-121.825793221
 10
453.110389527
 20
-124.7286477513
 10
452.2411450208
 20
-127.6537718703
 10
451.224404984
 20
-130.5862601602
 10
450.0653534791
 20
-133.5111684909
 10
448.7698963331
 20
-136.4135923437
 10
447.3446347963
 20
-139.2787413349
 10
445.7968312974
 20
-142.0920152585
 10
444.1343725655
 20
-144.839078608
 10
442.3657301171
 20
-147.5059335774
 10
440.4999167924
 20
-150.0789907802
 10
438.546440657
 20
-152.5451384468
 10
436.5152562696
 20
-154.8918101016
 10
434.4167133158
 20
-157.1070446344
 10
432.2615058997
 20
-159.1795551179
 10
430.0606172268
 20
-161.0987820343
 10
427.8252613222
 20
-162.8549451722
 10
425.566830018
 20
-164.4390924807
 10
423.2968310503
 20
-165.8431570987
 10
421.0268320825
 20
-167.0599775017
 10
418.7684007783
 20
-168.0833594742
 10
416.5330448737
 20
-168.9080833281
 10
414.3321562008
 20
-169.5299483848
 10
412.1769487848
 20
-169.9457874179
 10
410.0784058309
 20
-170.1534790061
 10
408.0472214436
 20
-170.1519629269
 10
407.5385906416
 20
-170.1178601513
  0
ENDSEC
  0
SECTION
  2
OBJECTS
  0
DICTIONARY
  5
C
330
0
100
AcDbDictionary
281
     1
  3
ACAD_GROUP
350
D
  3
ACAD_LAYOUT
350
1A
  3
ACAD_MLINESTYLE
350
17
  3
ACAD_PLOTSETTINGS
350
19
  3
ACAD_PLOTSTYLENAME
350
E
  3
ACAD_SCALELIST
350
47
  0
DICTIONARY
  5
D
102
{ACAD_REACTORS
330
C
102
}
330
C
100
AcDbDictionary
281
     1
  0
DICTIONARY
  5
1A
102
{ACAD_REACTORS
330
C
102
}
330
C
100
AcDbDictionary
281
     1
  3
Layout1
350
1E
  3
Layout2
350
26
  3
Model
350
22
  0
DICTIONARY
  5
17
102
{ACAD_REACTORS
330
C
102
}
330
C
100
AcDbDictionary
281
     1
  3
Standard
350
18
  0
DICTIONARY
  5
19
102
{ACAD_REACTORS
330
C
102
}
330
C
100
AcDbDictionary
281
     1
  0
ACDBDICTIONARYWDFLT
  5
E
102
{ACAD_REACTORS
330
C
102
}
330
C
100
AcDbDictionary
281
     1
  3
Normal
350
F
100
AcDbDictionaryWithDefault
340
F
  0
DICTIONARY
  5
47
102
{ACAD_REACTORS
330
C
102
}
330
C
100
AcDbDictionary
281
     1
  3
A0
350
48
  3
A1
350
49
  3
A2
350
4A
  3
A3
350
4B
  3
A4
350
4C
  3
A5
350
4D
  3
A6
350
4E
  3
A7
350
4F
  3
A8
350
50
  3
A9
350
51
  3
B0
350
52
  3
B1
350
53
  3
B2
350
54
  3
B3
350
55
  3
B4
350
56
  3
B5
350
57
  3
B6
350
58
  3
B7
350
59
  3
B8
350
5A
  3
B9
350
5B
  3
C0
350
5C
  3
C1
350
5D
  3
C2
350
5E
  3
C3
350
5F
  3
C4
350
60
  3
C5
350
61
  3
C6
350
62
  3
C7
350
63
  3
C8
350
64
  3
C9
350
65
  3
D0
350
66
  3
D1
350
67
  3
D2
350
68
  0
LAYOUT
  5
1E
102
{ACAD_REACTORS
330
1A
102
}
330
1A
100
AcDbPlotSettings
  1

  2
none_device
  4

  6

 40
0.0
 41
0.0
 42
0.0
 43
0.0
 44
0.0
 45
0.0
 46
0.0
 47
0.0
 48
0.0
 49
0.0
140
0.0
141
0.0
142
1.0
143
1.0
 70
   688
 72
     1
 73
     0
 74
     5
  7

 75
    16
147
1.0
148
0.0
149
0.0
100
AcDbLayout
  1
Layout1
 70
     1
 71
     1
 10
0.0
 20
0.0
 11
420.0
 21
297.0
 12
0.0
 22
0.0
 32
0.0
 14
1.0000000000E+20
 24
1.0000000000E+20
 34
1.0000000000E+20
 15
-1.0000000000E+20
 25
-1.0000000000E+20
 35
-1.0000000000E+20
146
0.0
 13
0.0
 23
0.0
 33
0.0
 16
1.0
 26
0.0
 36
0.0
 17
0.0
 27
1.0
 37
0.0
 76
     0
330
1B
  0
LAYOUT
  5
26
102
{ACAD_REACTORS
330
1A
102
}
330
1A
100
AcDbPlotSettings
  1

  2
none_device
  4

  6

 40
0.0
 41
0.0
 42
0.0
 43
0.0
 44
0.0
 45
0.0
 46
0.0
 47
0.0
 48
0.0
 49
0.0
140
0.0
141
0.0
142
1.0
143
1.0
 70
   688
 72
     1
 73
     0
 74
     5
  7

 75
    16
147
1.0
148
0.0
149
0.0
100
AcDbLayout
  1
Layout2
 70
     1
 71
     2
 10
0.0
 20
0.0
 11
0.0
 21
0.0
 12
0.0
 22
0.0
 32
0.0
 14
0.0
 24
0.0
 34
0.0
 15
0.0
 25
0.0
 35
0.0
146
0.0
 13
0.0
 23
0.0
 33
0.0
 16
1.0
 26
0.0
 36
0.0
 17
0.0
 27
1.0
 37
0.0
 76
     0
330
23
  0
LAYOUT
  5
22
102
{ACAD_REACTORS
330
1A
102
}
330
1A
100
AcDbPlotSettings
  1

  2
none_device
  4
Letter_(8.50_x_11.00_Inches)
  6

 40
6.35
 41
6.35
 42
6.35000508
 43
6.35000508
 44
215.9
 45
279.4
 46
0.0
 47
0.0
 48
0.0
 49
0.0
140
0.0
141
0.0
142
1.0
143
1.0
 70
  1712
 72
     1
 73
     0
 74
     0
  7

 75
     0
147
1.0
148
0.0
149
0.0
100
AcDbLayout
  1
Model
 70
     1
 71
     0
 10
0.0
 20
0.0
 11
279.4
 21
215.9
 12
0.0
 22
0.0
 32
0.0
 14
0.0
 24
0.0
 34
0.0
 15
279.4
 25
215.9
 35
0.0
146
0.0
 13
0.0
 23
0.0
 33
0.0
 16
1.0
 26
0.0
 36
0.0
 17
0.0
 27
1.0
 37
0.0
 76
     0
330
1F
331
29
  0
MLINESTYLE
  5
18
102
{ACAD_REACTORS
330
17
102
}
330
17
100
AcDbMlineStyle
  2
Standard
 70
     0
  3

 62
   256
 51
90.0
 52
90.0
 71
     2
 49
0.5
 62
   256
  6
BYLAYER
 49
-0.5
 62
   256
  6
BYLAYER
  0
ACDBPLACEHOLDER
  5
F
102
{ACAD_REACTORS
330
E
102
}
330
E
  0
SCALE
  5
48
102
{ACAD_REACTORS
330
47
102
}
330
47
100
AcDbScale
 70
     0
300
1:1
140
1.0
141
1.0
290
     1
  0
SCALE
  5
49
102
{ACAD_REACTORS
330
47
102
}
330
47
100
AcDbScale
 70
     0
300
1:2
140
1.0
141
2.0
290
     0
  0
SCALE
  5
4A
102
{ACAD_REACTORS
330
47
102
}
330
47
100
AcDbScale
 70
     0
300
1:4
140
1.0
141
4.0
290
     0
  0
SCALE
  5
4B
102
{ACAD_REACTORS
330
47
102
}
330
47
100
AcDbScale
 70
     0
300
1:5
140
1.0
141
5.0
290
     0
  0
SCALE
  5
4C
102
{ACAD_REACTORS
330
47
102
}
330
47
100
AcDbScale
 70
     0
300
1:8
140
1.0
141
8.0
290
     0
  0
SCALE
  5
4D
102
{ACAD_REACTORS
330
47
102
}
330
47
100
AcDbScale
 70
     0
300
1:10
140
1.0
141
10.0
290
     0
  0
SCALE
  5
4E
102
{ACAD_REACTORS
330
47
102
}
330
47
100
AcDbScale
 70
     0
300
1:16
140
1.0
141
16.0
290
     0
  0
SCALE
  5
4F
102
{ACAD_REACTORS
330
47
102
}
330
47
100
AcDbScale
 70
     0
300
1:20
140
1.0
141
20.0
290
     0
  0
SCALE
  5
50
102
{ACAD_REACTORS
330
47
102
}
330
47
100
AcDbScale
 70
     0
300
1:30
140
1.0
141
30.0
290
     0
  0
SCALE
  5
51
102
{ACAD_REACTORS
330
47
102
}
330
47
100
AcDbScale
 70
     0
300
1:40
140
1.0
141
40.0
290
     0
  0
SCALE
  5
52
102
{ACAD_REACTORS
330
47
102
}
330
47
100
AcDbScale
 70
     0
300
1:50
140
1.0
141
50.0
290
     0
  0
SCALE
  5
53
102
{ACAD_REACTORS
330
47
102
}
330
47
100
AcDbScale
 70
     0
300
1:100
140
1.0
141
100.0
290
     0
  0
SCALE
  5
54
102
{ACAD_REACTORS
330
47
102
}
330
47
100
AcDbScale
 70
     0
300
2:1
140
2.0
141
1.0
290
     0
  0
SCALE
  5
55
102
{ACAD_REACTORS
330
47
102
}
330
47
100
AcDbScale
 70
     0
300
4:1
140
4.0
141
1.0
290
     0
  0
SCALE
  5
56
102
{ACAD_REACTORS
330
47
102
}
330
47
100
AcDbScale
 70
     0
300
8:1
140
8.0
141
1.0
290
     0
  0
SCALE
  5
57
102
{ACAD_REACTORS
330
47
102
}
330
47
100
AcDbScale
 70
     0
300
10:1
140
10.0
141
1.0
290
     0
  0
SCALE
  5
58
102
{ACAD_REACTORS
330
47
102
}
330
47
100
AcDbScale
 70
     0
300
100:1
140
100.0
141
1.0
290
     0
  0
SCALE
  5
59
102
{ACAD_REACTORS
330
47
102
}
330
47
100
AcDbScale
 70
     0
300
1/128" = 1'-0"
140
0.0078125
141
12.0
290
     0
  0
SCALE
  5
5A
102
{ACAD_REACTORS
330
47
102
}
330
47
100
AcDbScale
 70
     0
300
1/64" = 1'-0"
140
0.015625
141
12.0
290
     0
  0
SCALE
  5
5B
102
{ACAD_REACTORS
330
47
102
}
330
47
100
AcDbScale
 70
     0
300
1/32" = 1'-0"
140
0.03125
141
12.0
290
     0
  0
SCALE
  5
5C
102
{ACAD_REACTORS
330
47
102
}
330
47
100
AcDbScale
 70
     0
300
1/16" = 1'-0"
140
0.0625
141
12.0
290
     0
  0
SCALE
  5
5D
102
{ACAD_REACTORS
330
47
102
}
330
47
100
AcDbScale
 70
     0
300
3/32" = 1'-0"
140
0.09375
141
12.0
290
     0
  0
SCALE
  5
5E
102
{ACAD_REACTORS
330
47
102
}
330
47
100
AcDbScale
 70
     0
300
1/8" = 1'-0"
140
0.125
141
12.0
290
     0
  0
SCALE
  5
5F
102
{ACAD_REACTORS
330
47
102
}
330
47
100
AcDbScale
 70
     0
300
3/16" = 1'-0"
140
0.1875
141
12.0
290
     0
  0
SCALE
  5
60
102
{ACAD_REACTORS
330
47
102
}
330
47
100
AcDbScale
 70
     0
300
1/4" = 1'-0"
140
0.25
141
12.0
290
     0
  0
SCALE
  5
61
102
{ACAD_REACTORS
330
47
102
}
330
47
100
AcDbScale
 70
     0
300
3/8" = 1'-0"
140
0.375
141
12.0
290
     0
  0
SCALE
  5
62
102
{ACAD_REACTORS
330
47
102
}
330
47
100
AcDbScale
 70
     0
300
1/2" = 1'-0"
140
0.5
141
12.0
290
     0
  0
SCALE
  5
63
102
{ACAD_REACTORS
330
47
102
}
330
47
100
AcDbScale
 70
     0
300
3/4" = 1'-0"
140
0.75
141
12.0
290
     0
  0
SCALE
  5
64
102
{ACAD_REACTORS
330
47
102
}
330
47
100
AcDbScale
 70
     0
300
1" = 1'-0"
140
1.0
141
12.0
290
     0
  0
SCALE
  5
65
102
{ACAD_REACTORS
330
47
102
}
330
47
100
AcDbScale
 70
     0
300
1-1/2" = 1'-0"
140
1.5
141
12.0
290
     0
  0
SCALE
  5
66
102
{ACAD_REACTORS
330
47
102
}
330
47
100
AcDbScale
 70
     0
300
3" = 1'-0"
140
3.0
141
12.0
290
     0
  0
SCALE
  5
67
102
{ACAD_REACTORS
330
47
102
}
330
47
100
AcDbScale
 70
     0
300
6" = 1'-0"
140
6.0
141
12.0
290
     0
  0
SCALE
  5
68
102
{ACAD_REACTORS
330
47
102
}
330
47
100
AcDbScale
 70
     0
300
1'-0" = 1'-0"
140
12.0
141
12.0
290
     0
  0
ENDSEC
  0
EOF
